Volcano

| No Comments | No TrackBacks
------------------------------------------------------------------------------- Volcano - U2 -------------------------------------------------------------------------------


Tuning: standard

pre-chorus 1 and 2

e|---------------------------------------------------------------------------|
B|---------------------------------------------------------------------------|
G|---------------------------------------------------------------------------|
D|---------------------------------------------------------------------------|
A|---------------------------------------------------------------------------|
E|--12-12-12-12-12-12-12-12-10-10-10-10-10-10-10-10-7-7-7-7-7-7-7-7----------|

e|---------------------------------------------------------------------------|
B|---------------------------------------------------------------------------|
G|---------------------------------------------------------------------------|
D|---------------------------------------------------------------------------|
A|---------------------------------------------------------------------------|
E|--5-5-5-5-3-3-5-5----------------------------------------------------------|

e|---------------------------------------------------------------------------|
B|---------------------------------------------------------------------------|
G|---------------------------------------------------------------------------|
D|---------------------------------------------------------------------------|
A|---------------------------------------------------------------------------|
E|--12-12-12-12-12-12-12-12-10-10-10-10-10-10-10-10-7-7-7-7-7-7-7-7----------|

chorus 1, 2, and 3

e|---------------------------------------------------------------------------|
B|---------------------------------------------------------------------------|
G|--12-12-12-12-12-12-12-12--------------------------------------------------|
D|--------------------------14-12-14-12-14-----------------------------------|
A|---------------------------------------------------------------------------|
E|---------------------------------------------------------------------------|

e|---------------------------------------------------------------------------|
B|---------------------------------------------------------------------------|
G|---------------------------------------------------------------------------|
D|---------------------------------------------------------------------------|
A|--14-14-14-14-14-14-14-14-12-12-12-12-14-14-14-14--------------------------|
E|---------------------------------------------------------------------------|

after first chorus

e|---------------------------------------------------------------------------|
B|---------------------------------------------------------------------------|
G|---------------------------------------------------------------------------|
D|---------------------------------------------------------------------------|
A|-----------------------------3-3-2-3-0-------------------------------------|
E|--0--0-3-0-5--3-5-3-0--0-3-0------------3--0-------------------------------|

verse 2 (slightly mute the strings)

e|--15-15-15-15-15-15-15-15-14-14-14-14-14-14-14-14--------------------------|
B|---------------------------------------------------------------------------|
G|---------------------------------------------------------------------------|
D|---------------------------------------------------------------------------|
A|---------------------------------------------------------------------------|
E|---------------------------------------------------------------------------|

e|---------------------------------------------------------------------------|
B|--15-15-15-15-15-15-15-15--------------------------------------------------|
G|--------------------------17-17-17-17--------------------------------------|
D|--------------------------------------16-16-16-16--------------------------|
A|---------------------------------------------------------------------------|
E|---------------------------------------------------------------------------|

right after interlude

e|---------------------------------------------------------------------------|
B|---------------------------------------------------------------------------|
G|---------------------------------------------------------------------------|
D|---------------------------------------------------------------------------|
A|---------------------------------------------------------------------------|
E|--0---0---7-10-7-10-7-10---0---0---7-10-7-10-7-10--------------------------|

e|---------------------------------------------------------------------------|
B|---------------------------------------------------------------------------|
G|---------------------------------------------------------------------------|
D|---------------------------------------------------------------------------|
A|------7------------------------7-------------------------------------------|
E|--0-------7-10-7-10-7-10---0-------7-10-7-10-7-10--------------------------|

************************************

| / slide up
| \ slide down
| h hammer-on
| p pull-off
| ~ vibrato
| + harmonic
| x Mute note
| b Bend
| pb Pre-bend
| br Bend release
| pbr Pre-bend release
| brb Bend release bend

************************************

Em A Em C

Em A Em C
The world is spinning fast tonight You can hurt yourself tryin' to hold on.
Em A Em C
To what you used to be I'm so glad the past is all gone?
Em A Em C
Been out in the wild Been out in the night.
Em A Em C
Been out of your mind Do you live here or is this a vacation.

Em C G D Em
Oh Volcano, you don't wanna, you don't wanna know.
C G D Em
Volcano Something in you wants to blow.
C G D Em A Em C
Volcano You don't wanna, you don't wanna know.

Em A Em C
Your eyes were like landing lights They used to be the clearest blue.
Em A Em C
Now you don't see so well The future's gonna land on you.
Em A Em C
Been out in the wild Been out in the night.
Em A Em C
Been out of your mind Do you live here or is this a vacation.

Em C G D Em
Oh Volcano, you don't wanna, you don't wanna know.
C G D Em
Volcano Something in you wants to blow.
C G D Em
Volcano You don't wanna, you don't wanna know.
C G D Em
You're on a piece of ground above a volcano.

Em
You were alone.
Em
Now you're not alone.
Em
You were alone.
Em
YOU ARE ROCK 'N ROLL.
Em
YOU AND I ARE ROCK 'N ROLL.
Em
YOU ARE ROCK 'N ROLL.
Em
YOU AND I ARE ROCK 'N ROLL.

Em C G D Em
Oh Volcano, you don't wanna, you don't wanna know.
C G D Em
Volcano Something in you wants to blow.
C G D Em
Volcano You don't wanna, you don't wanna know.
C G D Em
You're on a piece of ground above a volcano.

No TrackBacks

TrackBack URL: http://u2station.com/m-t/mt-tb.cgi/2641

Leave a comment

About this Entry

This page contains a single entry by Jonathan published on September 28, 2016 1:08 AM.

Iris (Hold Me Close) was the previous entry in this blog.

Volcano is the next entry in this blog.

Find recent content on the main index or look in the archives to find all content.

Pages

Chordfinder