This is Where You Can Reach Me Now

| No Comments | No TrackBacks
This Is Where You Can Reach Me Now by U2

No guitar from 0:00-0:35

Intro/Chorus: 0:36-1:15
Cm Eb Gm
e|----------------------------------------------------------------
B|-----4-4-6-4---6---4--4-6-4--------8-8-6-8----------------------
G|---------------5-------------------8-8-8-8----------3-5-3-------
D|----------------------------------------------------------------
A|-3-----------------------------6--------------------------------
E|---------------------------------------------3---3--------------

C Ab G
e|----------------------------------------------------------------
B|-----5--------6-5------5s6s5------------------------------------
G|-----5-----------------------------5-5--4-----------4-5-4-------
D|-----------------------------------6---------------------------- X3 both sections
A|-3---------------------------------6----------------------------
E|-------------------------------4-------------3------------------

e|------------------------------------
B|------------------------------------
G|------------------------------------
D|-3-3---3-3--3-----------------------
A|-3-3---3-3--3-----------------------
E|-1-1---1-1--1-----------------------

Break: 1:16-1:32
No Guitar

Verse Rhythm Guitar: 1:32-2:02
Cm Ab Gm
e|------------------------------------
B|------------------------------------
G|-5---5---5---5----------------------
D|-5---5---5---5---6---6---5---5-5-5-- X4
A|-3---3---3---3---6---6---5---5-5-5--
E|-----------------4---4---3---3-3-3--
F
e|------------------------------------
B|------------------------------------
G|------------------------------------
D|-3-3---3-3--3-----------------------
A|-3-3---3-3--3-----------------------
E|-1-1---1-1--1-----------------------

Verse Lead Guitar: 1:46-1:59
e|------------------------------------------------------------------------
B|------------------------------------------------------------------------
G|------------------------------------------------------------------------
D|-10--10--8-10-10-8--10--10--8-10-10-8--10--10--8-10-10-8---10--8------8- X2
A|------------------------------------------------------------------10----
E|------------------------------------------------------------------------

Chorus: 2:03-2:33
e|-----------------------------------------------------------------------------------
B|-----------------------------------------------------------------------------------
G|-----------------------------------------------------------------------------------
D|-------------------10---8-----8-----8--10------------------------------------------ X2
A|----------8---10-----------10----10------------------------------------------------
E|-8---11------------------------------------8---12---13---12---11------10-----------

e|----------10----------------11-
B|-11------------13------11-13---
G|------12------------12---------
D|-------------------------------
A|-------------------------------
E|-------------------------------

Break: 2:33-2:46
No Guitar

Verse 2 Rhythm Guitar: 2:46-3:16
Cm Ab Gm
e|------------------------------------
B|------------------------------------
G|-5---5---5---5----------------------
D|-5---5---5---5---6---6---5---5-5-5-- X4
A|-3---3---3---3---6---6---5---5-5-5--
E|-----------------4---4---3---3-3-3--
F
e|------------------------------------
B|------------------------------------
G|------------------------------------
D|-3-3---3-3--3-----------------------
A|-3-3---3-3--3-----------------------
E|-1-1---1-1--1-----------------------

Verse 2 Lead Guitar: 2:59-3:13

e|------------------------------------------------------------------------
B|------------------------------------------------------------------------
G|------------------------------------------------------------------------
D|-10--10--8-10-10-8--10--10--8-10-10-8--10--10--8-10-10-8---10--8------8- X2
A|------------------------------------------------------------------10----
E|------------------------------------------------------------------------

Chorus 2: 3:16-3:46
e|-----------------------------------------------------------------------------------
B|-----------------------------------------------------------------------------------
G|-----------------------------------------------------------------------------------
D|-------------------10---8-----8-----8--10------------------------------------------ X2
A|----------8---10-----------10----10------------------------------------------------
E|-8---11------------------------------------8---12---13---12---11------10-----------

e|----------10----------------11-
B|-11------------13------11-13---
G|------12------------12---------
D|-------------------------------
A|-------------------------------
E|-------------------------------

Break Guitar 1: 3:46-4:26
e|------------------------------------------
B|------------------------------------------
G|-10---12---12---12---12-10---12---12---12-
D|------------------------------------------ X12
A|------------------------------------------
E|------------------------------------------

Break Guitar 2: 3:51-4:26
e|--------------------11--------------------
B|--------------11-13-----13----------------
G|------------12----------------------------
D|------------------------------------------ X5
A|------------------------------------------
E|------------------------------------------

e|------------------------------------------
B|-----------11s13s11-------------6s8s6-----
G|------------------------------------------
D|------------------------------------------
A|------------------------------------------
E|------------------------------------------

Outro Guitar 1: 4:29-4:56
e|-----------------------------------------------------------------------------------
B|-----------------------------------------------------------------------------------
G|-----------------------------------------------------------------------------------
D|-------------------10---8-----8-----8--10------------------------------------------ X3
A|----------8---10-----------10----10------------------------------------------------
E|-8---11------------------------------------8---12---13---12---11------10-----------

Outro Guitar 2: 4:43-5:05
Cm Eb Gm
e|----------------------------------------------------------------
B|-----4-4-6-4---6---4--4-6-4--------8-8-6-8----------------------
G|---------------5-------------------8-8-8-8----------3-5-3-------
D|----------------------------------------------------------------
A|-3-----------------------------6--------------------------------
E|---------------------------------------------3---3--------------

C Ab G
e|----------------------------------------------------------------
B|-----5--------6-5------5s6s5------------------------------------
G|-----5-----------------------------5-5--4-----------4-5-4-------
D|-----------------------------------6----------------------------
A|-3---------------------------------6----------------------------
E|-------------------------------4-------------3------------------
C
e|----------------------------------------------------------------
B|----------------------------------------------------------------
G|-5-----2---3-2--3-2--3-2--2s3s5---------------------------------
D|----------------------------------------------------------------
A|-----------------------------------3----------------------------
E|----------------------------------------------------------------


Cm
Cm Eb Gm C Ab G

Cm Eb Gm
Soldier soldier We signed our lives away.
C Ab G
Complete surrender The only weapon we know.
Cm Eb Gm
Soldier soldier We knew the world would never be the same.
C Ab G F
Soldier this is where you can reach me now.

Cm Ab G

Cm Ab G
We come from an ancient place Beyond what we can see.
Cm Ab G
We've come to colonise your night And steal your poetry.

Cm Eb Gm
Old man knows that I never listen So how could I have something to say.
Cm Eb Gm
Old man knows how to cheat ambition You don't lose if you don't play.

F
1, 2, 3, 4, was enough

Cm Eb Gm
Soldier soldier We signed our lives away.
C Ab G
Complete surrender The only weapon we know.
Cm Eb Gm
Soldier soldier We knew the world would never be the same.
C Ab G F
Soldier this is where you can reach me now.

Cm Ab G

Cm Ab G
On a double decker bus Into College Square.
Cm Ab G
If you won't let us in your world Your world just isn't there.

Cm Eb Gm
Old men says that we never listen We shout about what we don't know.
Cm Eb Gm
We're taking the path of most resistance The only way for us to go.

F
hup, 2, 3, 4, was enough

Cm Eb Gm
Soldier soldier We signed our lives away.
C Ab G
Complete surrender The only weapon we know.
Cm Eb Gm
Soldier soldier We knew the world would never be the same.
C Ab G F
Soldier this is where you can reach me now.

Cm Eb Gm C Ab G

Cm Eb Gm C
This is the site This is the reason.
Ab G Cm
This is where you can reach me now.
Eb Gm C
This is the time This is the number.
Ab G F
This is where you can reach me now.

Cm Eb Gm C Ab G

No TrackBacks

TrackBack URL: http://u2station.com/m-t/mt-tb.cgi/2646

Leave a comment

About this Entry

This page contains a single entry by Jonathan published on September 28, 2016 1:16 AM.

Sleep Like a Baby Tonight was the previous entry in this blog.

This is Where You Can Reach Me Now is the next entry in this blog.

Find recent content on the main index or look in the archives to find all content.

Pages

Chordfinder