Sleep Like a Baby Tonight

| No Comments | No TrackBacks
------------------------------------------------------------------------------- Sleep Like a Baby Tonight - U2 -------------------------------------------------------------------------------

Tuning: standard

Chorus 1 and 2

e|---------------------------------------------------------------------------|
B|---10---10---9----9----10---10---12---12-----------------------------------|
G|------9----9---11---11----9----9----9----9---------------------------------| x4
D|---------------------------------------------------------------------------|
A|---------------------------------------------------------------------------|
E|---------------------------------------------------------------------------|

after chorus 1

e|----------------------------------------------------------------------------|
B|----------------------------------------------------------------------------|
G|----------------------------------------------------------------------------|
D|----------------------------------------------------------------------------|
A|----------------------------------------------------------------------------|
E|---10\2--2-2-5-5-5----5-5-4-2--2-2-5-5-5----5-5-4-2--2-2-5-5-5----5-5-4-----|

e|----------------------------------------------------------------------------|
B|----------------------------------------------------------------------------|
G|----------------------------------------------------------------------------|
D|----------------------------------------------------------------------------|
A|----------------------------------------------------------------------------|
E|---10---10-10--9--7---7-7-7-7---2-------------------------------------------|

chorus 2

e|---------------------------------------------------------------------------|
B|---10---10---9----9----10---10---12---12-----------------------------------|
G|------9----9---11---11----9----9----9----9---------------------------------| x4
D|---------------------------------------------------------------------------|
A|---------------------------------------------------------------------------|
E|---------------------------------------------------------------------------|

chorus 3

e|---------------------------------------------------------------------------|
B|---10---10---9----9----10---10---12---12-----------------------------------|
G|------9----9---11---11----9----9----9----9---------------------------------| x3
D|---------------------------------------------------------------------------|
A|---------------------------------------------------------------------------|
E|---------------------------------------------------------------------------|

e|---------------------------------------------------------------------------|
B|---10---10---9----9----10---10---9----9------------------------------------|
G|------9----9---11---11----9----9---11---11---------------------------------|
D|---------------------------------------------------------------------------|
A|---------------------------------------------------------------------------|
E|---------------------------------------------------------------------------|

e|---------------------------------------------------------------------------|
B|---10---10---9----9----10---10---12---12-----------------------------------|
G|------9----9---11---11----9----9----9----9---------------------------------| x3
D|---------------------------------------------------------------------------|
A|---------------------------------------------------------------------------|
E|---------------------------------------------------------------------------|

e|---------------------------------------------------------------------------|
B|---10---10---9----9----10---10---9----9------------------------------------|
G|------9----9---11---11----9----9---11---11---------------------------------|
D|---------------------------------------------------------------------------|
A|---------------------------------------------------------------------------|
E|---------------------------------------------------------------------------|

solo

e|---------------------------------------------------------------------------|
B|---------------------------------------------------------------------------|
G|----16-16-16-16----14------------------------------------------------------| x6
D|----------------16----16---------------------------------------------------|
A|---------------------------------------------------------------------------|
E|---------------------------------------------------------------------------|

e|---------------------------------------------------------------------------|
B|----12pbr------------------------------------------------------------------|
G|---------------------------------------------------------------------------|
D|---------------------------------------------------------------------------|
A|-------------------14\12-----11\9-----14\12-----11\9-----------------------|
E|---------------------------------------------------------------------------|

************************************

| / slide up
| \ slide down
| h hammer-on
| p pull-off
| ~ vibrato
| + harmonic
| x Mute note
| b Bend
| pb Pre-bend
| br Bend release
| pbr Pre-bend release
| brb Bend release bend

************************************

-------------------------------------------------------------------------------
SLEEP LIKE A BABY TONIGHT - U2
-------------------------------------------------------------------------------
Tabbed by: Ricky Choaders
E-mail: hmu @Tpreviti at twitter.com
Tuning: Standard
A song by the great Bono

So this is just the intro to the song. Give it some distortion and reverb or chorus or
any cool effect personally it sounded cool with any of them. And I put in the chords that
the riffs are built around cuz im a helpful person. Also add slides between
the notes. Oh yeah and it works best when you finger-pick it.
Give it five fuckin stars its spot on

Part 1
Fm A A E
e|---------------------------------------------------------------------------|
B|---------------------------------------------------------------------------|
G|---------------------------------------------------------------------------|
D|-------4-4--------7-7--------7-7------2-2----------------------------------|Play 3x
A|---------------------------------------------------------------------------|
E|---2-2-2-2----5-5-5-5----5-5-5-5--0-0-0-0----------------------------------|

Part 2
(play part one then this little bit)
D Db B B
e|---------------------------------------------------------------------------|
B|---------------------------------------------------------------------------|
G|-------7-7--------4-4------------------------------------------------------|
D|---------------------------------------------------------------------------|Play at end
A|---5-5-5-5----2-2-2-2------------------------------------------------------|of part one
E|---------------------------------------------------------------------------|

After this Bono starts singing and it repeats like this for good part of the song.
Bam that's the intro.











F#m A E F#m A E F#m A E D B

F#m A E
Morning, your toast, your tea and
F#m A E
Sugar, Read about the politician's
F#m A E
Lover, Go through the day like knife through
D B
Butter, Why don't you.

F#m A E
You dress in the colours of
F#m A E
Forgiveness, Your eyes as red as.
F#m A E
Christmas, Purple robes are folder.
D B
On the kitchen chair.

F#m E D
You're gonna sleep like a baby tonight.
F#m E D
In your dreams, everything is alright.
F#m E B
Tomorrow dawns like someone else's suicide.
D E
You're gonna sleep like a baby tonight.

F#m A E F#m A E F#m A E D B

F#m A E
Dreams It's a dirty business,
F#m A E
Dreaming, Where there is silence and not
F#m A E
Screaming, Where there's no daylight, there's no
D B
Healing, no, no

F#m E D
You're gonna sleep like a baby tonight.
F#m E D
In your dreams, everything is alright.
F#m E B
Tomorrow dawns like someone else's suicide.
D E
You're gonna sleep like a baby tonight.

F#m A E
Hope, hope is where the
F#m A E
Door is, When the church is where the
F#m A E
War is, Where no one can
D B
Feel no one else's pain.

F#m E D
You're gonna sleep like a baby tonight.
F#m E D
In your dreams, everything is alright.
F#m E B
Tomorrow dawns like someone else's suicide.
D E
You're gonna sleep like a baby tonight.

F#m E D
Sleep like a baby tonight.
F#m E D
Like a bird, your dreams take a flight.
F#m E B
Like St. Francis covered in light.
D E
You're gonna sleep like a baby tonight.

F#m A E F#m A E F#m A E D B

No TrackBacks

TrackBack URL: http://u2station.com/m-t/mt-tb.cgi/2645

Leave a comment

About this Entry

This page contains a single entry by Jonathan published on September 28, 2016 1:14 AM.

Cedarwood Road was the previous entry in this blog.

This is Where You Can Reach Me Now is the next entry in this blog.

Find recent content on the main index or look in the archives to find all content.

Pages

Chordfinder