Raised by Wolves

| No Comments | No TrackBacks
------------------------------------------------------------------------------- Raised By Wolves - U2 -------------------------------------------------------------------------------

Tuning: standard

verse 1

1:07

e|--6-6-6--------6-6-6-------------------------------------------------------|
B|--7-7-7--------7-7-7-------------------------------------------------------|
G|--8-8-8--------8-8-8-------------------------------------------------------|
D|---------------------------------------------------------------------------|
A|---------------------------------------------------------------------------|
E|---------------------------------------------------------------------------|

e|--------------------------9-9-9-9-9-9-9-9----------------------------------|
B|--11-11-11-11-11-11-11-11-----------------9-9-9-9-9-9-9-9-9-9-9-9-9-9-9-9--|
G|---------------------------------------------------------------------------|
D|---------------------------------------------------------------------------|
A|---------------------------------------------------------------------------|
E|---------------------------------------------------------------------------|

e|-----------------------------------------------------------------------------------|
B|--11-11-11-11-11-11-11-11-11-11-11-11-11-11-11-11-9-9-9-9-9-9-9-9-9-9-9-9-9-9-9-9--|
G|-----------------------------------------------------------------------------------|
D|-----------------------------------------------------------------------------------|
A|-----------------------------------------------------------------------------------|
E|-----------------------------------------------------------------------------------|

e|--------------------------9-9-9-9-9-9-9-9----------------------------------|
B|--11-11-11-11-11-11-11-11-----------------9-9-9-9-9-9-9-9-9-9-9-9-9-9-9-9--|
G|---------------------------------------------------------------------------|
D|---------------------------------------------------------------------------|
A|---------------------------------------------------------------------------|
E|---------------------------------------------------------------------------|

e|--------------------------9-9-9-9-9-9-9-9----------------------------------|
B|--11-11-11-11-11-11-11-11--------------------------------------------------|
G|---------------------------------------------------------------------------|
D|---------------------------------------------------------------------------|
A|---------------------------------------------------------------------------|
E|---------------------------------------------------------------------------|

chorus 1 (notice that 2nd measure has one different note played)

e|--6-6-6-------------------------------------------------------------------------------------|
B|--7-7-7-15-15--15-15--15-15--15-15-15-15-13-13-15-15-15-15-11-11-11-11-10-10-10-10-8-8-8-8--|
G|--8-8-8-------------------------------------------------------------------------------------|
D|--------------------------------------------------------------------------------------------|
A|--------------------------------------------------------------------------------------------|
E|--------------------------------------------------------------------------------------------|

e|--------------------------------------------------------------------------------------------|
B|--15-15--15-15--15-15--15-15-15-15-14-13-15-15-15-15-11-11-11-11-10-10-10-10-8-8-8-8--------|
G|--------------------------------------------------------------------------------------------|
D|--------------------------------------------------------------------------------------------|
A|--------------------------------------------------------------------------------------------|
E|--------------------------------------------------------------------------------------------|

e|--------------------------------------------------------------------------------------------|
B|--15-15--15-15--15-15--15-15-15-15-13-13-15-15-15-15-11-11-11-11-10-10-10-10-8-8-8-8--------|
G|--------------------------------------------------------------------------------------------|
D|--------------------------------------------------------------------------------------------|
A|--------------------------------------------------------------------------------------------|
E|--------------------------------------------------------------------------------------------|

e|--------------------------------------------------------------------------------------------|
B|--15-15--15-15--15-15--15-15-15-15-13-13-15-15-15-15-11-11-11-11-10-10-10-10-8-8-8-8--------|
G|--------------------------------------------------------------------------------------------|
D|--------------------------------------------------------------------------------------------|
A|--------------------------------------------------------------------------------------------|
E|--------------------------------------------------------------------------------------------|

e|--6-6-6--------------------------------------------------------------------|
B|--7-7-7--------------------------------------------------------------------|
G|--8-8-8-8------------------------------------------------------------------|
D|---------------------------------------------------------------------------|
A|---------------------------------------------------------------------------|
E|---------------------------------------------------------------------------|

verse 2

2:46

e|--------------------------9-9-9-9-9-9-9-9----------------------------------|
B|--11-11-11-11-11-11-11-11-----------------9-9-9-9-9-9-9-9-9-9-9-9-9-9-9-9--|
G|---------------------------------------------------------------------------|
D|---------------------------------------------------------------------------|
A|---------------------------------------------------------------------------|
E|---------------------------------------------------------------------------|

e|--------------------------9-9-9-9-9-9-9-9----------------------------------|
B|--11-11-11-11-11-11-11-11--------------------------------------------------|
G|---------------------------------------------------------------------------|
D|---------------------------------------------------------------------------|
A|---------------------------------------------------------------------------|
E|---------------------------------------------------------------------------|

chorus 2 (notice again that 2nd measure has one different note played)

e|--6-6-6-------------------------------------------------------------------------------------|
B|--7-7-7-15-15--15-15--15-15--15-15-15-15-13-13-15-15-15-15-11-11-11-11-10-10-10-10-8-8-8-8--|
G|--8-8-8-------------------------------------------------------------------------------------|
D|--------------------------------------------------------------------------------------------|
A|--------------------------------------------------------------------------------------------|
E|--------------------------------------------------------------------------------------------|

e|--------------------------------------------------------------------------------------------|
B|--15-15--15-15--15-15--15-15-15-15-14-13-15-15-15-15-11-11-11-11-10-10-10-10-8-8-8-8--------|
G|--------------------------------------------------------------------------------------------|
D|--------------------------------------------------------------------------------------------|
A|--------------------------------------------------------------------------------------------|
E|--------------------------------------------------------------------------------------------|

e|--------------------------------------------------------------------------------------------|
B|--15-15--15-15--15-15--15-15-15-15-13-13-15-15-15-15-11-11-11-11-10-10-10-10-8-8-8-8--------|
G|--------------------------------------------------------------------------------------------|
D|--------------------------------------------------------------------------------------------|
A|--------------------------------------------------------------------------------------------|
E|--------------------------------------------------------------------------------------------|

e|--------------------------------------------------------------------------------------------|
B|--15-15--15-15--15-15--15-15-15-15-13-13-15-15-15-15-11-11-11-11-10-10-10-10-8-8-8-8--------|
G|--------------------------------------------------------------------------------------------|
D|--------------------------------------------------------------------------------------------|
A|--------------------------------------------------------------------------------------------|
E|--------------------------------------------------------------------------------------------|

e|--6-6-6--------------------------------------------------------------------|
B|--7-7-7--------------------------------------------------------------------|
G|--8-8-8-8------------------------------------------------------------------|
D|---------------------------------------------------------------------------|
A|---------------------------------------------------------------------------|
E|---------------------------------------------------------------------------|

************************************

| / slide up
| \ slide down
| h hammer-on
| p pull-off
| ~ vibrato
| + harmonic
| x Mute note
| b Bend
| pb Pre-bend
| br Bend release
| pbr Pre-bend release
| brb Bend release bend

************************************

RAISED BY WOLVES
U2
SONGS OF INNOCENCE (2014)


Intro | D#m | G# | x4


D#m
Face down on a broken street,
G#
there's a man in the corner in a pool of misery, I'm in a
D#m G#
white van as a red sea covers the ground..
D#m
Metal crash I can't tell what it is,
G#
but I take a look and now I'm sorry I did.
D#m G#
5:30 on a Friday night 33 good people cut down


D#m G#
I don't believe anymore,
D#m G# D#m
I don't believe anymore..


D#m
Face down on a pillow of shame,
G#
there are some girls with a needle tryin' to spell my name, my
D#m G#
body's not a canvas, my body's now a toilet wall.


D#m G#
I don't believe anymore,
D#m C#
I don't believe anymore..


B C# D#m
Raised by wolves! Stronger than fear.
B C# D#m
Raised by wolves, we were raised by wolves.
B C# D#m
Raised by wolves, stronger than fear!
B C# D#m
If I open my eyes, you disappear..


| D#m | G# | x2


D#m
Boy sees his father crushed under the weight,
G#
of a cross in a passion where the passion is hate.
D#m G#
Blue mink Ford, I'm gonna detonate and you're dead.
D#m
Blood in the house, blood on the street.
G#
The worst things in the world are justified by belief
D#m G#
Registration 1385-WZ


D#m G#
I don't believe anymore,
D#m C#
I don't believe anymore..


B C# D#m
Raised by wolves! Stronger than fear.
B C# D#m
Raised by wolves, we were raised by wolves.
B C# D#m
Raised by wolves, stronger than fear!
B C# D#m
If I open my eyes, you disappear..


|D#m |G# | x5 End on D#m

No TrackBacks

TrackBack URL: http://u2station.com/m-t/mt-tb.cgi/2643

Leave a comment

About this Entry

This page contains a single entry by Jonathan published on September 28, 2016 1:11 AM.

Volcano was the previous entry in this blog.

Cedarwood Road is the next entry in this blog.

Find recent content on the main index or look in the archives to find all content.

Pages

Chordfinder