Cedarwood Road

| No Comments | No TrackBacks
------------------------------------------------------------------------------- Cedarwood Road - U2 -------------------------------------------------------------------------------

Tuning: standard

intro

e|---------------------------------------------------------------------------|
B|--10-8-7-8-7-5--7-7-7-5-5--------------------------------------------------|
G|---------------------------------------------------------------------------| x4
D|---------------------------------------------------------------------------|
A|---------------------------------------------------------------------------|
E|---------------------------------------------------------------------------|

e|---------------------------------------------------------------------------|
B|---------------------------------------------------------------------------|
G|-----------------------------------7-7-9-9---------------------------------| x4
D|-----------------------------------7-7-9-9---------------------------------|
A|-----------------------------------5-5-7-7---------------------------------|
E|--0-0-0-5-3-0-0-0-5-3-0-0-0-5-3-0------------------------------------------|

e|---------------------------------------------------------------------------|
B|---------------------------------------------------------------------------|
G|---------------------------------------------------------------------------|
D|---------------------------------------------------------------------------|
A|--7-5-2-0------------------------------------------------------------------|
E|----------3-2-0------------------------------------------------------------|

verse 1

palm muted

e|----------------------------------------------------------------------------------|
B|----------------------------------------------------------------------------------|
G|----------------------------------------------------------------------------------|
D|----------------------------------------------------------------------------------|
A|----------------------------------------------------------------------------------|
E|--0-0-0-0-0-0--0-0-0-0-0-0--5-5-5-5-5-5--3-3-3-3-3-3--8-8-8-8-8-8--8-8-8-8-8-8----|

e|---------------------------------------------------------------------------|
B|---------------------------------------------------------------------------|
G|---------------------------------------------------------------------------| x2
D|---------------------------------------------------------------------------|
A|---------------------------------------------------------------------------|
E|--5-5-5-5-5-5--7-7-7-7-7-7-------------------------------------------------|

e|---------------------------------------------------------------------------|
B|--10-8-7-8-7-5--7-7-7-5-5--------------------------------------------------|
G|---------------------------------------------------------------------------| x2
D|---------------------------------------------------------------------------|
A|---------------------------------------------------------------------------|
E|---------------------------------------------------------------------------|

chorus 1

guitar 1

e|---------------------------------------------------------------------------|
B|--10-8-7-8-7-5--7-7-7-5-5--------------------------------------------------|
G|---------------------------------------------------------------------------| x4
D|---------------------------------------------------------------------------|
A|---------------------------------------------------------------------------|
E|---------------------------------------------------------------------------|

guitar 2

e|---------------------------------------------------------------------------|
B|---------------------------------------------------------------------------|
G|---------------------------------------------------------------------------| x3
D|---------------------------------------------------------------------------|
A|---------------------------------------------------------------------------|
E|--8-8-8-8-12-12-12-12-7-7-7-7-8-8-8-8--------------------------------------|

e|---------------------------------------------------------------------------|
B|---------------------------------------------------------------------------|
G|---------------------------------------------------------------------------|
D|---------------------------------------------------------------------------|
A|---------------------------------------------------------------------------|
E|--8-8-8-8-8-8-8-8-7-7-7-7-5-5-5-5------------------------------------------|

afterwards

e|---------------------------------------------------------------------------|
B|---------------------------------------------------------------------------|
G|-----------------------------------7-7-9-9---------------------------------| x2
D|-----------------------------------7-7-9-9---------------------------------|
A|-----------------------------------5-5-7-7---------------------------------|
E|--0-0-0-5-3-0-0-0-5-3-0-0-0-5-3-0------------------------------------------|

e|---------------------------------------------------------------------------|
B|---------------------------------------------------------------------------|
G|---------------------------------------------------------------------------|
D|---------------------------------------------------------------------------|
A|--7-5-2-0------------------------------------------------------------------|
E|----------3-2-0------------------------------------------------------------|

verse 2

verse 1

palm muted

e|----------------------------------------------------------------------------------|
B|----------------------------------------------------------------------------------|
G|----------------------------------------------------------------------------------|
D|----------------------------------------------------------------------------------|
A|----------------------------------------------------------------------------------|
E|--0-0-0-0-0-0--0-0-0-0-0-0--5-5-5-5-5-5--3-3-3-3-3-3--8-8-8-8-8-8--8-8-8-8-8-8----|

e|---------------------------------------------------------------------------|
B|---------------------------------------------------------------------------|
G|---------------------------------------------------------------------------| x2
D|---------------------------------------------------------------------------|
A|---------------------------------------------------------------------------|
E|--5-5-5-5-5-5--7-7-7-7-7-7-------------------------------------------------|

e|---------------------------------------------------------------------------|
B|--10-8-7-8-7-5--7-7-7-5-5--------------------------------------------------|
G|---------------------------------------------------------------------------| x2
D|---------------------------------------------------------------------------|
A|---------------------------------------------------------------------------|
E|---------------------------------------------------------------------------|

chorus 2

guitar 1

e|---------------------------------------------------------------------------|
B|--10-8-7-8-7-5--7-7-7-5-5--------------------------------------------------|
G|---------------------------------------------------------------------------| x4
D|---------------------------------------------------------------------------|
A|---------------------------------------------------------------------------|
E|---------------------------------------------------------------------------|

guitar 2

e|---------------------------------------------------------------------------|
B|---------------------------------------------------------------------------|
G|---------------------------------------------------------------------------| x3
D|---------------------------------------------------------------------------|
A|---------------------------------------------------------------------------|
E|--8-8-8-8-12-12-12-12-7-7-7-7-8-8-8-8--------------------------------------|

e|---------------------------------------------------------------------------|
B|---------------------------------------------------------------------------|
G|---------------------------------------------------------------------------|
D|---------------------------------------------------------------------------|
A|---------------------------------------------------------------------------|
E|--8-8-8-8-8-8-8-8-7-7-7-7-5-5-5-5------------------------------------------|

afterwards

e|---------------------------------------------------------------------------|
B|---------------------------------------------------------------------------|
G|-----------------------------------7-7-9-9---------------------------------| x2
D|-----------------------------------7-7-9-9---------------------------------|
A|-----------------------------------5-5-7-7---------------------------------|
E|--0-0-0-5-3-0-0-0-5-3-0-0-0-5-3-0------------------------------------------|

e|---------------------------------------------------------------------------|
B|---------------------------------------------------------------------------|
G|---------------------------------------------------------------------------|
D|---------------------------------------------------------------------------|
A|--7-5-2-0------------------------------------------------------------------|
E|----------3-2-0------------------------------------------------------------|

solo into last chorus

e|---------------------------------------------------------------------------|
B|---------------------------------------------------------------------------|
G|--9-9-9-9-9-9-9-9-9-9-9-9-9-11-12-12-12-14-16-16-17-16---------------------| x2
D|---------------------------------------------------------------------------|
A|--7-7-7-7-7-7-7-7-7-7-7-7-7--9-10-10-10-12-14-14-15-14---------------------|
E|---------------------------------------------------------------------------|

e|---------------------------------------------------------------------------|
B|---------------------------------------------------------------------------|
G|--9-9-9-9-12-9-9-7-7-4-4-7-7-9-9-9-9-12-9-9-7-7-7-7-7-7-7------------------|
D|---------------------------------------------------------------------------|
A|--7-7-7-7-10-7-7-5-5-2-2-5-5-7-7-7-7-10-7-7-5-5-5-5-5-5-5------------------|
E|---------------------------------------------------------------------------|

e|---------------------------------------------------------------------------|
B|---------------------------------------------------------------------------|
G|--9-9-9-9-9-9-9-9-9-9-9-9-9-11-12-12-12-14-16-16-17-16---------------------| x3
D|---------------------------------------------------------------------------|
A|--7-7-7-7-7-7-7-7-7-7-7-7-7--9-10-10-10-12-14-14-15-14---------------------|
E|---------------------------------------------------------------------------|

e|---------------------------------------------------------------------------|
B|---------------------------------------------------------------------------|
G|--9-9-9-9-12-9-9-7-7-4-4-7-7-9-9-9-9-12-9-9-7-7-7-7-7-7-7------------------|
D|---------------------------------------------------------------------------|
A|--7-7-7-7-10-7-7-5-5-2-2-5-5-7-7-7-7-10-7-7-5-5-5-5-5-5-5------------------|
E|---------------------------------------------------------------------------|

e|---------------------------------------------------------------------------|
B|---------------------------------------------------------------------------|
G|--9-9-9-9-9-9-9-9-9-9-9-9-9-11-12-12-12-14-16-16-17-16---------------------|
D|---------------------------------------------------------------------------|
A|--7-7-7-7-7-7-7-7-7-7-7-7-7--9-10-10-10-12-14-14-15-14---------------------|
E|---------------------------------------------------------------------------|

e|---------------------------------------------------------------------------|
B|---------------------------------------------------------------------------|
G|--9-9-9-9-12-9-9-7-7-4-4-7-7-9-9-9-9-12-9-9-7-7-7-7-7-7-7------------------|
D|---------------------------------------------------------------------------|
A|--7-7-7-7-10-7-7-5-5-2-2-5-5-7-7-7-7-10-7-7-5-5-5-5-5-5-5------------------|
E|---------------------------------------------------------------------------|

e|---------------------------------------------------------------------------|
B|---------------------------------------------------------------------------|
G|--9-9-9-9-9-9-9-9-9-9-9-9-9-11-12-12-12-14-16-16-17-16---------------------|
D|---------------------------------------------------------------------------|
A|--7-7-7-7-7-7-7-7-7-7-7-7-7--9-10-10-10-12-14-14-15-14---------------------|
E|---------------------------------------------------------------------------|

outro

e|---------------------------------------------------------------------------|
B|---------------------------------------------------------------------------|
G|-----------------------------------7-7-9-9---------------------------------| x4
D|-----------------------------------7-7-9-9---------------------------------|
A|-----------------------------------5-5-7-7---------------------------------|
E|--0-0-0-5-3-0-0-0-5-3-0-0-0-5-3-0------------------------------------------|

e|---------------------------------------------------------------------------|
B|---------------------------------------------------------------------------|
G|---------------------------------------------------------------------------|
D|---------------------------------------------------------------------------|
A|--7-5-2-0------------------------------------------------------------------|
E|----------3-2-0------------------------------------------------------------|


************************************

| / slide up
| \ slide down
| h hammer-on
| p pull-off
| ~ vibrato
| + harmonic
| x Mute note
| b Bend
| pb Pre-bend
| br Bend release
| pbr Pre-bend release
| brb Bend release bend

************************************

Sorry for any errors, this is my first tab, I think it's simple and I hope that it's right.

Anyway in this song I use a distortion during the whole song and a delay(with a bit of feedback, high volume

and ripetions fast enough) only in some parts.

Intro (with delay)

E|------------------------------------|
B|-10---8-7-8-7-5---7-7-7--5-5--------|
G|------------------------------------|
D|------------------------------------| x4
A|------------------------------------|
E|------------------------------------|

Now without delay

E|----------------------------------------------------x--x-|
B|----------------------------------------------------7--9-|
G|----------------------------------------------------7--9-|
D|----------------------------------------------------7--9-| x2
A|----------------------------------------------------5--7-|
E|-0-0-0-0-5-3---0---0-0-0-5-3---0-0-0-0-0-5-3---0-0--x--x-|
(P.M P.M. P.M P.M P.M)

E|----------------------------------------------------x--x-- ----------------|
B|----------------------------------------------------7--9-- ----------------|
G|----------------------------------------------------7--9-- ----------------|
D|----------------------------------------------------7--9-- x2 ----------------|
A|----------------------------------------------------5--7-- -7-5-2-0--------|
E|-0---0-0-5-3---0---0-0-0-5-3---0---0-0-5-3---0-0----x--x--- ----------3-2-0-|
(THIS WITHOUT P.M.)

---- ----
Then, during the verse, play the chords E, A, G, C, A, B with P.M. and always without delay.
---- ----

Chorus (with delay)

E|------------------------------------|
B|-10---8-7-8-7-5---7-7-7--5-5--------|
G|------------------------------------|
D|------------------------------------| x6
A|------------------------------------|
E|------------------------------------|

And then again without delay

E|----------------------------------------------------x--x-- ----------------|
B|----------------------------------------------------7--9-- ----------------|
G|----------------------------------------------------7--9-- ----------------|
D|----------------------------------------------------7--9-- x2 ----------------|
A|----------------------------------------------------5--7-- -7-5-2-0--------|
E|-0---0-0-5-3---0---0-0-0-5-3---0---0-0-5-3---0-0----x--x-- ----------3-2-0-|
(THIS WITHOUT P.M.)

---- ----
Then, during the verse, play the chords E, A, G, C, A, B with P.M. and always without delay.
---- ----

Chorus (with delay)

E|------------------------------------|
B|-10---8-7-8-7-5---7-7-7--5-5--------|
G|------------------------------------| x6
D|------------------------------------|
A|------------------------------------|
E|------------------------------------|

And then without delay

E|----------------------------------------------------x--x--|
B|----------------------------------------------------7--9--|
G|----------------------------------------------------7--9--|
D|----------------------------------------------------7--9--| x2
A|----------------------------------------------------5--7--|
E|-0---0-0-5-3---0---0-0-0-5-3---0---0-0-5-3---0-0----x--x--|
(THIS WITHOUT P.M.)

Bridge

E|----------------------------------|
B|----------------------------------|
G|-9(x8)-12-12-14-16-16-16ph17h16---| x10
D|----------------------------------|
A|----------------------------------|
E|----------------------------------|

Outro

E|----------------------------------------------------x--x-- ----------------|
B|----------------------------------------------------7--9-- ----------------|
G|----------------------------------------------------7--9-- ----------------|
D|----------------------------------------------------7--9-- x4 ----------------|
A|----------------------------------------------------5--7-- -7-5-2-0--------|
E|-0---0-0-5-3---0---0-0-0-5-3---0---0-0-5-3---0-0----x--x-- ----------3-2-0-|
(THIS WITHOUT P.M.)

That's all, thanks! :)


C Em Bm C C Em Bm Am
Em Em Em D Em

[Verse 1]
Em Am G
I was running down the road The fear was all I knew.
C Am B7
I was looking for a soul that's real Then I ran into you.
Em Am G
And that cherry blossom tree Was a gateway to the sun.
C Am B7
And friendship once it's won It's won... it's one.

[Hook]
C Em Bm Am
Northside just across the river to the
C Em Bm Am
Southside That's a long way here.

C Em Bm C
All the green and all the gold.
C Em Bm Am
The hurt you hide, the joy you hold.
C Em Bm C
The foolish pride that gets you out the door.
C B7 Am
Up on Cedarwood, Cedarwood Road.

Em

[Verse 2]
Em Am G
Sleepwalking down the road Not waking from those dreams.
C Am B7
'Cause it's never dead it's still in my head It was a warzone in my teens.
Em Am G
I'm still standing on that street Still need an enemy.
C Am B7
The worst ones I can't see You can... you can.

[Hook]
C Em Bm Am
Northside just across the river to the
C Em Bm Am
Southside That's a long way here.

C Em Bm C
All the green and all the gold.
C Em Bm Am
The hurt you hide, the joy you hold.
C Em Bm C
The foolish pride that sends you back for more.
C B7 Am
Up on Cedarwood, Cedarwood Road.

Em
C Em Bm Am

[Verse 3]
C Em Bm Am
If the door is open it isn't theft.
C Em Bm Am
You can't return to where you've never left.
C Em Bm Am
Blossoms falling from a tree they cover you and cover me.
C Bm Am
Symbols clashing, bibles smashing Paint the world you need to see.
C Em Bm Am
Sometimes fear is the only place we can call home.
C B7 Am
Cedarwood Road.

Em

[Outro]
Em
A HEART THAT IS BROKEN.
Em
IS A HEART THAT IS OPEN.

No TrackBacks

TrackBack URL: http://u2station.com/m-t/mt-tb.cgi/2644

Leave a comment

About this Entry

This page contains a single entry by Jonathan published on September 28, 2016 1:12 AM.

Raised by Wolves was the previous entry in this blog.

Sleep Like a Baby Tonight is the next entry in this blog.

Find recent content on the main index or look in the archives to find all content.

Pages

Chordfinder