Volcano

| No Comments | No TrackBacks
------------------------------------------------------------------------------- Volcano - U2 ------------------------------------------------------------------------------- Tabbed by: ThatWogBoy (Paul Scaramella) Tuning: Standard EADG


VERSE:
G|--------------|--------------|--------------|----------|
D|--------------|--------------|--------------|----------|
A|--------------|--------------|------------3-|--3-2-----| x5
E|-0---0-3--0-5-|-----3-5--3-0-|-----0-3--0---|------5-3-|

PRE CHORUS:
G|--------------|--------------|--------------|
D|--------------|--------------|--------------|
A|--------------|--------------|--------------|
E|-0---0-3--0-5-|-----3-5--3-0-|--5---5--5--5-|

CHORUS:
G|-------------------|-----------------|------------|
D|-------------------|-----------------|------------|
A|-7--7-7--7-5-7-5-0-|-----------------|---3--------| x3
E|-------------------|-3-3-3-3-3-3-3-3-|-5----3-1-0-|

VERSE:
G|--------------|--------------|--------------|----------|
D|--------------|--------------|--------------|----------|
A|--------------|--------------|------------3-|--3-2-----| x4
E|-0---0-3--0-5-|-----3-5--3-0-|-----0-3--0---|------5-3-|

PRE CHORUS:
G|--------------|--------------|--------------|
D|--------------|--------------|--------------|
A|--------------|--------------|--------------|
E|-0---0-3--0-5-|-----3-5--3-0-|--5---5--5--5-|

CHORUS:
G|-------------------|-----------------|------------|
D|-------------------|-----------------|------------|
A|-7--7-7--7-5-7-5-0-|-----------------|---3--------| x4
E|-------------------|-3-3-3-3-3-3-3-3-|-5----3-1-0-|

Rest for till 2:15, then

BRIDGE:
G|-----|
D|-----|
A|-----|
E|-15/-|

G|--------------|---------------|
D|--------------|---------------|
A|--------------|-2-5--2--5-2-5-| x5
E|-0-0---0-0--0-|---------------|

G|-----------------|
D|-----------------|
A|-2-5---2---5-2-5-|
E|-----------------|

CHORUS:
G|-------------------|-----------------|------------|
D|-------------------|-----------------|------------|
A|-7--7-7--7-5-7-5-0-|-----------------|---3--------| x4
E|-------------------|-3-3-3-3-3-3-3-3-|-5----3-1-0-|

End on 7th fret of A string...


| / slide up
| \ slide down
| h hammer-on
| p pull-off
| ~ vibrato
| + harmonic
| x Mute note

Thanks for rating :) If there are any corrections comment them below :)
===============================================================================

Intro

G|--------------------------------------| x2
D|--------------------------------------|
A|----------------------------3-3-2-0---|
E|-0--0-3-0-5--3-5-3-0--0-3-0---------3-|

Verse

G|--------------------------------------| x2
D|--------------------------------------|
A|----------------------------3-3-2-0---|
E|-0--0-3-0-5--3-5-3-0--0-3-0---------3-|

G|--------------------------------------|
D|--------------------------------------|
A|----------------------------3-3-2-3-5-|
E|-0--0-3-0-5--3-5-3-0--0-3-0-----------|

G|--------------------------------------|
D|--------------------------------------|
A|--------------------------------------|
E|-0--0-3-0-5--3-5-3-0--0-3-0-----------|

Chorus

G|-------------------------------| x3
D|-------------------------------|
A|-7777575-32-320--------5555535-|
E|----------------3-03-0---------|

Solo

G|--------------------------------------|
D|--------------------------------------|
A|----------------------------3-3-2-0---|
E|-0--0-3-0-5--3-5-3-0--0-3-0---------3-|

Verse 2

G|--------------------------------------| x2
D|--------------------------------------|
A|----------------------------3-3-2-0---|
E|-0--0-3-0-5--3-5-3-0--0-3-0---------3-|

G|--------------------------------------|
D|--------------------------------------|
A|----------------------------3-3-2-3-5-|
E|-0--0-3-0-5--3-5-3-0--0-3-0-----------|

G|--------------------------------------|
D|--------------------------------------|
A|--------------------------------------|
E|-0--0-3-0-5--3-5-3-0--0-3-0-----------|

Chorus 2

G|-------------------------------| x4
D|-------------------------------|
A|-7777575-32-320--------5555535-|
E|----------------3-03-0---------|

Solo 2

G|---------------------| x2
D|---------------------|
A|---------------------|
E|-12\0--7-10-7-10-710-|

G|---------------------| x2
D|---------------------|
A|---------------------|
E|-0--0--7-10-7-10-710-|

G|---------------------| x2
D|---------------------|
A|----7----------------|
E|-0-----7-10-7-10-710-|

Chorus 2

G|-------------------------------| x4
D|-------------------------------|
A|-7777575-32-320--------5555535-|
E|----------------3-03-0---------|

Outro

G|---|
D|---|
A|---|
E|-0-|

No TrackBacks

TrackBack URL: http://u2station.com/m-t/mt-tb.cgi/2642

Leave a comment

About this Entry

This page contains a single entry by Jonathan published on September 28, 2016 1:09 AM.

Volcano was the previous entry in this blog.

Raised by Wolves is the next entry in this blog.

Find recent content on the main index or look in the archives to find all content.

Pages

Chordfinder