This is Where You Can Reach Me Now

| No Comments | No TrackBacks
This Is Where You Can Reach Me Now Bass Tab by U2

Intro (Bass start at 0:36) ~

G|-------------------------------|
D|-------------------------------|
A|-15~---------------18~---------|
E|---------------------------15~-|

G|-------------------------------|
D|-------------------------------|
A|-15~---------------------------|
E|-------------------16~-----15~-|

G|-------------------------------|
D|-------------------------------|
A|-15~---------------18~---------|
E|---------------------------15~-|

G|-------------------------------|
D|-------------------------------|
A|-15~---------------------------|
E|-------------------16~-----15~-|

G|-------------------------------|
D|-------------------------------|
A|-15~---------------18~---------|
E|---------------------------15~-|

G|-------------------------------|
D|-------------------------------|
A|-15~---------------------------|
E|-------------------16~-----15~-|

Keyboard Solo

G|-------------------------------------| x2
D|-----1h3-1-----1h3-1-----------------|
A|-3-3-------3-3-----------------------|
E|---------------------4-4-4-4-3-3-3-3-|

Verse

G|-------------------------------------| x2
D|-----1h3-1-----1h3-1-----------------|
A|-3-3-------3-3-----------------------|
E|---------------------4-4-4-4-3-3-3-3-|

G|-----------------------------------------| x2
D|---------1---------1-1-1-----1-----------|
A|-3-3-1h3---3-3-1h3-------1h3-----------1-|
E|-------------------------------3-3-1h3---|

Pre-Chorus

G-------------------------------|
D-------------------------------|
A-------------------------------|
E-1-1-1-1-1-1-1-1-1-1-1-1-1-1-1-|

Chorus

G|-----------------------------3-3-|
D|------------------------5-5-5-5--|
A|-3-3-3313-3-1313-6-6-666---------|
E|---------------------------------|

G|---------------------------------|
D|---------------------------------|
A|-3-3-3313-3-1313-------------1-1-|
E|-----------------4-4-4443-3-3-3--|


G|-----------------------------3-3-|
D|------------------------5-5-5-5--|
A|-3-3-3313-3-1313-6-6-666---------|
E|---------------------------------|

G|---------------------------------|
D|---------------------------------|
A|-3-3-3313-3-1313-------------1-1-|
E|-----------------4-4-4443-3-3-3--|

G-------------------------------|
D-------------------------------|
A-------------------------------|
E-1-1-1-1-1-1-1-1-1-1-1-1-1-1-1-|

Keyboard Solo 2

G|-------------------------------------| x2
D|-----1h3-1-----1h3-1-----------------|
A|-3-3-------3-3-----------------------|
E|---------------------4-4-4-4-3-3-3-3-|

Verse 2

G|-------------------------------------| x2
D|-----1h3-1-----1h3-1-----------------|
A|-3-3-------3-3-----------------------|
E|---------------------4-4-4-4-3-3-3-3-|

G|-----------------------------------------| x2
D|---------1---------1-1-1-----1-----------|
A|-3-3-1h3---3-3-1h3-------1h3-----------1-|
E|-------------------------------3-3-1h3---|

Pre-Chorus 2

G-------------------------------|
D-------------------------------|
A-------------------------------|
E-1-1-1-1-1-1-1-1-1-1-1-1-1-1-1-|

Chorus 2

G|-----------------------------3-3-|
D|------------------------5-5-5-5--|
A|-3-3-3313-3-1313-6-6-666---------|
E|---------------------------------|

G|---------------------------------|
D|---------------------------------|
A|-3-3-3313-3-1313-------------1-1-|
E|-----------------4-4-4443-3-3-3--|


G|-----------------------------3-3-|
D|------------------------5-5-5-5--|
A|-3-3-3313-3-1313-6-6-666---------|
E|---------------------------------|

G|---------------------------------|
D|---------------------------------|
A|-3-3-3313-3-1313-------------1-1-|
E|-----------------4-4-4443-3-3-3--|

G-------------------------------|
D-------------------------------|
A-------------------------------|
E-1-1-1-1-1-1-1-1-1-1-1-1-1-1-1-|

Solo

G|-------------------------------|
D|-------------------------------|
A|-15~---------------18~---------|
E|---------------------------15~-|

G|-------------------------------|
D|-------------------------------|
A|-15~---------------------------|
E|-------------------16~-----15~-|

G|-------------------------------|
D|-------------------------------|
A|-15~---------------18~---------|
E|---------------------------15~-|

G|-------------------------------|
D|-------------------------------|
A|-15~---------------------------|
E|-------------------16~-----15~-|

G|-------------------------------|
D|-------------------------------|
A|-15~---------------18~---------|
E|---------------------------15~-|

G|-------------------------------|
D|-------------------------------|
A|-15~---------------------------|
E|-------------------16~-----15~-|

Pre-Chorus 3

G-------------------------------|
D-------------------------------|
A-------------------------------|
E-1-1-1-1-1-1-1-1-1-1-1-1-1-1-1-|

Chorus 3

G|-----------------------------3-3-|
D|------------------------5-5-5-5--|
A|-3-3-3313-3-1313-6-6-666---------|
E|---------------------------------|

G|---------------------------------|
D|---------------------------------|
A|-3-3-3313-3-1313-------------1-1-|
E|-----------------4-4-4443-3-3-3--|


G|-----------------------------3-3-|
D|------------------------5-5-5-5--|
A|-3-3-3313-3-1313-6-6-666---------|
E|---------------------------------|

G|---------------------------------|
D|---------------------------------|
A|-3-3-3313-3-1313-------------1-1-|
E|-----------------4-4-4443-3-3-3--|

Outro

G---------------------------------|
D---------------------------------|
A---------------------------------|
E-1-1-1-1-1-1-1-1-1-1-1-1-1-1-1/8-|

No TrackBacks

TrackBack URL: http://u2station.com/m-t/mt-tb.cgi/2647

Leave a comment

About this Entry

This page contains a single entry by Jonathan published on September 28, 2016 1:17 AM.

This is Where You Can Reach Me Now was the previous entry in this blog.

The Troubles is the next entry in this blog.

Find recent content on the main index or look in the archives to find all content.

Pages

Chordfinder