The Miracle (Of Joey Ramone)

| No Comments | No TrackBacks
------------------------------------------------------------------------------- THE MIRACLE (OF JOEY RAMONE) - U2 ------------------------------------------------------------------------------- Tabbed by: ThatWogBoy (Paul Scaramella) Tuning: Standard EADG


INTRO
G|------------------------------------------------|
D|------------------------------------------------|
A|------------------------------------------------| X2
E|-0-5--5----0-5--5----0-5--5----x3-3-3----x1-1-1-|

VERSE 1
G|-------------------------------------------------------|
D|-------------------------------------------------------|
A|----------------3--3--3-5-3----------------------------| X4
E|-5--5--5-7-5------------------3--3--3-5-3---1--1--0--0-|

PRE-CHORUS
G|----------------------------------|---------------------------|
D|----------------------------------|---------------------------|
A|--------3--3----------------------|--------3--3---5--5---5--5-|
E|-5--5----------3--3---1--1---0--0-|-5--5----------------------|


CHORUS
G|-------------------------------------------------------|
D|-------------------------------------------------------|
A|-----------------------------------------------5--4----|
E|-3--3--3--3---10--10--10--10---7--7--7--7---5--------5-|

G|---------------------------------------------------|
D|---------------------------------------------------|
A|---------------------------------------------------|
E|-3--3--3--3---10--10--10--10---5--7-7-5---5--7-7-5-|

G|-------------------------------------------------------|
D|-------------------------------------------------------|
A|-----------------------------------------------5--4----|
E|-3--3--3--3---10--10--10--10---7--7--7--7---5--------5-|

G|---------------------------------------------------|
D|---------------------------------------------------|
A|---------------------------------------------------|
E|-3--3--3--3---10--10--10--10---5--7-7-5---5--7-7-5-|

INTERLUDE
G|----------------------------------|----------------------------------|
D|----------------------------------|----------------------------------|
A|--------3--3----------------------|--------3--3----------------------|
E|-5--5----------3--3---1--1---0--0-|-5--5----------3--3---3--3---0--0-|

VERSE 2

G|-------------------------------------------------------|
D|-------------------------------------------------------|
A|----------------3--3--3-5-3----------------------------| X4
E|-5--5--5-7-5------------------3--3--3-5-3---1--1--0--0-|

CHORUS
G|-------------------------------------------------------|
D|-------------------------------------------------------|
A|-----------------------------------------------5--4----|
E|-3--3--3--3---10--10--10--10---7--7--7--7---5--------5-|

G|---------------------------------------------------|
D|---------------------------------------------------|
A|---------------------------------------------------|
E|-3--3--3--3---10--10--10--10---5--7-7-5---5--7-7-5-|

G|-------------------------------------------------------|
D|-------------------------------------------------------|
A|-----------------------------------------------5--4----|
E|-3--3--3--3---10--10--10--10---7--7--7--7---5--------5-|

G|---------------------------------------------------|
D|---------------------------------------------------|
A|---------------------------------------------------|
E|-3--3--3--3---10--10--10--10---5--7-7-5---5--7-7-5-|

BRIDGE
G|----------------------------|
D|----------------------------|
A|----------------3--3---2--2-| X4
E|-3--3--3--3---5-------------|

G|-----------------------|
D|-----------------------|
A|-----------------------|
E|-3--3--3-/5--1--1--0--0|

INTERLUDE 2
G|------------------------------------------------|
D|------------------------------------------------|
A|------------------------------------------------| X2
E|-0-5--5----0-5--5----0-5--5----x3-3-3----x1-1-1-|

OUTRO
G|-----------------------------------------------|
D|-----------------------------------------------|
A|---------------------------------------------5-|
E|-3-----------/10-----------\7----------5-------|

G|-----------------------------------------|
D|-----------------------------------------|
A|-----------------------------------------|
E|-3-----------/10-----------\5----------5-|

G|-----------------------------------------------|
D|-----------------------------------------------|
A|---------------------------------------------5-|
E|-3-----------/10-----------\7----------5-------|

G|------------------------------|
D|------------------------------|
A|------------------------------|
E|-3-----------/10-----------\5-|

G|----------------------------------|----------------------------------|
D|----------------------------------|----------------------------------|
A|--------3--3----------------------|--------3--3----------------------|
E|-5--5----------3--3---1--1---0--0-|-5--5----------3--3---3--3---0--0-|

G|-------------------|
D|-------------------|
A|-------------------|
E|-0--5--5---0--5--5-|

| / slide up
| \ slide down
| h hammer-on
| p pull-off
| ~ vibrato
| + harmonic
| x Mute note

Thanks for rating :) If there are any corrections comment them below :)
===============================================================================

No TrackBacks

TrackBack URL: http://u2station.com/m-t/mt-tb.cgi/2634

Leave a comment

About this Entry

This page contains a single entry by Jonathan published on September 28, 2016 12:55 AM.

The Miracle (Of Joey Ramone) was the previous entry in this blog.

Every Breaking Wave is the next entry in this blog.

Find recent content on the main index or look in the archives to find all content.

Pages

Chordfinder