Song for Someone

| No Comments | No TrackBacks
------------------------------------------------------------------------------- Song For Someone - U2 ------------------------------------------------------------------------------- Tabbed by: queeniequynh

Tuning: Standard EADG

Verse 1

G|-----------------------------------------------------------------------------|
D|-----------------------------------------------------------------------------|
A|-----------------------------------------------------------------------------| x2
E|-0-----0----------0-----0-----------2-----2-----------4-----4----------------|


Pre-Chorus 1

G|-----------------------------------------------------------------------------|
D|-----------------------------------------------------------------------------|
A|-----------------------------------------------------------------------------| x2
E|-0-----0----------0-----0-----------2-----2-----------4-----4----------------|


Chorus 1

G|-----------------------------------------------------------------------------|
D|-----------------------------------------------------------------------------|
A|----------------------------------------------------------------2------------| x2
E|-0-0-0-0----0-0-0-7-7----7----7-7-7-2-2----2----2-2-2-4----2---------4-------|

G|-----------------------------------------------------------------------------|
D|----------------------------------------------------------------99-----------|
A|------------------------------------9-9-9-9-----9-9-9-1111-99--------1111----|
E|-0-0-0-0----0-0-0-7-7-7-7-----7-7-7------------------------------------------|

G|-----------------------------------------------------------------------------|
D|----------------------------------------------------------------9------------|
A|------------------------------------9-9-9-9-----9-9-9-11---9---------11------|
E|-0-0-0-0----0-0-0-7-7----7----7-7-7----------------------------------------0-|


Verse 2

G|-----------------------------------------------------------------------------|
D|-----------------------------------------------------------------------------|
A|----------------------------------------------------------------2------------| x2
E|-0-----0----------0-0---0-----------0-2----2--------2-4----2---------4-------|


Pre-Chorus 2

G|-----------------------------------------------------------------------------|
D|----------------------------------------------------------------99-----------|
A|------------------------------------9-9----9----9-9-9-1111-99--------1111----| x2
E|-0-0-0-0----0-0-0-7-7----7----7-7-7------------------------------------------|


Chorus 2

G|-----------------------------------------------------------------------------|
D|----------------------------------------------------------------99-----------|
A|------------------------------------9-9-9-9-----9-9-9-1111-99--------1111----| x2
E|-0-0-0-0----0-0-0-7-7-7-7-----7-7-7------------------------------------------|

G|-----------------------------------------------------------------------------|
D|-----------------------------------------------------------------------------|
A|----------------------------------------------------------------99-----------| x2
E|-12-0-12-0--12-11-9-7-7-7-7---7-6-4-9-9-9-9-----9-7-6-1111-99--------1111----|

G|-----------------------------------------------------------------------------|
D|-----------------------------------------------------------------------------|
A|-7-777-7--7-7-7-14-141414-14--14-14-14-11-111111-11--11-11-11----------------| x2
E|--------------------------------------------------------------9-999-9--9-9-9-|


Outro

G|-----------------------------------------------------------------------------|
D|-----------------------------------------------------------------------------|
A|-----------------------------------------------------------------------------| x4
E|-0----------------7-----------------2-----------------4----------------------|

| / slide up
| \ slide down
| h hammer-on
| p pull-off
| ~ vibrato
| + harmonic
| x Mute note

No TrackBacks

TrackBack URL: http://u2station.com/m-t/mt-tb.cgi/2639

Leave a comment

About this Entry

This page contains a single entry by Jonathan published on September 28, 2016 1:06 AM.

Song for Someone was the previous entry in this blog.

Iris (Hold Me Close) is the next entry in this blog.

Find recent content on the main index or look in the archives to find all content.

Pages

Chordfinder